池州吉他培训—池州飞天吉他培训|如何练习扫拨

来源:本站    日期:2014/6/9 16:52:41    浏览次数1772
对于扫拨的弹奏首先就是要循序渐进的练习。在练习时慢慢练,一步一步来。可以把一个和弦的琶音扫拨分成小块来练,比如这个F:
 下 下 下 下 下 上 下 上 上 上 上 上
---------------5--8--8--5-----------------
------------6--------------6--------------
---------5--------------------5-----------
------7--------------------------7--------
---8--------------------------------8-----
------------------------------------------

  如果你觉得弹不好的话,可以先练两根弦的:

      下 下 上 下 上 上
---------------5--8--8--5-----------------
------------6--------------6--------------
------------------------------------------
------------------------------------------
------------------------------------------
------------------------------------------

  在指板的每个把位都弹,先慢速,完全干净后再提高速度。觉得OK了,就再加一根弦:

    下 下 下 上 下 上 上 上
---------------5--8--8--5-----------------
------------6--------------6--------------
---------5--------------------5-----------
------------------------------------------
------------------------------------------
------------------------------------------

  也可以把和弦的其他部分拆出来单练,比如:

 下 下 下 上 上 上
----------------------------
----------------------------
---------5--5---------------
------7--------7------------
---8--------------8---------
----------------------------

  总之,从两三根弦比较容易的扫拨开始慢慢地巩固,逐步练到六根弦。这是从练习角度的一点建议。还有就是要注意左右手的护弦和匀速的弹奏,因为扫拨就象扫弦一样是在弹奏时同时下拨或全上拨,而且要有很高的速度才会出来味道。但扫拨不同于扫弦,扫拨要求音阶的颗粒性和连贯性,而扫弦得到的是几根弦同时发声的整体效果,所以练习练习扫拨一定要注意左右手的护弦和音阶的连贯匀速的弹奏。而且一定要先慢速的练习不要一上来就求快(虽然慢速练扫拨的味道很别扭),当你逐渐的掌握扫拨的感觉和护弦的技巧而且能够匀速弹奏后在逐渐加快速度。